ISO-10303-21;
HEADER;
FILE_DESCRIPTION (( 'STEP AP203' ),
    '1' );
FILE_NAME ('QB-CTZHWP-12.7-780-M.STEP',
    '2020-12-24T01:35:02',
    ( '' ),
    ( '' ),
    'SwSTEP 2.0',
    'SolidWorks 2020',
    '' );
FILE_SCHEMA (( 'CONFIG_CONTROL_DESIGN' ));
ENDSEC;

DATA;
#1 = COORDINATED_UNIVERSAL_TIME_OFFSET ( 8, 0, .AHEAD. ) ;
#2 = AXIS2_PLACEMENT_3D ( 'NONE', #264, #58, #155 ) ;
#3 = DIRECTION ( 'NONE',  ( 0.000000000000000000, 0.000000000000000000, 1.000000000000000000 ) ) ;
#4 = DIRECTION ( 'NONE',  ( 0.000000000000000000, 0.000000000000000000, 1.000000000000000000 ) ) ;
#5 = CALENDAR_DATE ( 2020, 24, 12 ) ;
#6 = FACE_OUTER_BOUND ( 'NONE', #16, .T. ) ;
#7 = DATE_AND_TIME ( #148, #334 ) ;
#8 = CARTESIAN_POINT ( 'NONE',  ( -1.500000000000000444, 6.349999999999999645, 0.000000000000000000 ) ) ;
#9 = ORIENTED_EDGE ( 'NONE', *, *, #114, .F. ) ;
#10 = DIRECTION ( 'NONE',  ( -1.000000000000000000, -0.000000000000000000, -0.000000000000000000 ) ) ;
#11 = DIRECTION ( 'NONE',  ( -1.000000000000000000, 0.000000000000000000, -0.000000000000000000 ) ) ;
#12 = AXIS2_PLACEMENT_3D ( 'NONE', #23, #225, #97 ) ;
#13 = LINE ( 'NONE', #217, #111 ) ;
#14 = EDGE_LOOP ( 'NONE', ( #250, #239 ) ) ;
#15 = CYLINDRICAL_SURFACE ( 'NONE', #21, 6.349999999999999645 ) ;
#16 = EDGE_LOOP ( 'NONE', ( #169, #246, #304, #296 ) ) ;
#17 = CARTESIAN_POINT ( 'NONE',  ( -1.614212418857619014, 0.000000000000000000, 0.000000000000000000 ) ) ;
#18 = DIRECTION ( 'NONE',  ( -1.000000000000000000, -0.000000000000000000, -0.000000000000000000 ) ) ;
#19 = DIRECTION ( 'NONE',  ( -1.000000000000000000, -0.000000000000000000, -0.000000000000000000 ) ) ;
#20 = VERTEX_POINT ( 'NONE', #198 ) ;
#21 = AXIS2_PLACEMENT_3D ( 'NONE', #143, #118, #64 ) ;
#22 = DIRECTION ( 'NONE',  ( -1.000000000000000000, -0.000000000000000000, -0.000000000000000000 ) ) ;
#23 = CARTESIAN_POINT ( 'NONE',  ( -3.000000000000000000, 0.000000000000000000, 0.000000000000000000 ) ) ;
#24 = EDGE_CURVE ( 'NONE', #117, #20, #106, .T. ) ;
#25 = LOCAL_TIME ( 9, 35, 2.000000000000000000, #1 ) ;
#26 = AXIS2_PLACEMENT_3D ( 'NONE', #240, #272, #321 ) ;
#27 = APPROVAL_DATE_TIME ( #230, #104 ) ;
#28 = AXIS2_PLACEMENT_3D ( 'NONE', #196, #47, #276 ) ;
#29 = APPROVAL_ROLE ( '' ) ;
#30 = DATE_TIME_ROLE ( 'classification_date' ) ;
#31 = DIRECTION ( 'NONE',  ( 0.000000000000000000, 0.000000000000000000, -1.000000000000000000 ) ) ;
#32 = CARTESIAN_POINT ( 'NONE',  ( -1.614212418857619014, 0.000000000000000000, 0.000000000000000000 ) ) ;
#33 = CYLINDRICAL_SURFACE ( 'NONE', #2, 6.349999999999999645 ) ;
#34 = VERTEX_POINT ( 'NONE', #70 ) ;
#35 = FACE_OUTER_BOUND ( 'NONE', #44, .T. ) ;
#36 = APPROVAL_PERSON_ORGANIZATION ( #73, #256, #29 ) ;
#37 = CIRCLE ( 'NONE', #223, 6.349999999999999645 ) ;
#38 = DIRECTION ( 'NONE',  ( 0.000000000000000000, 0.000000000000000000, 1.000000000000000000 ) ) ;
#39 = VERTEX_POINT ( 'NONE', #199 ) ;
#40 = APPROVAL ( #283, 'UNSPECIFIED' ) ;
#41 = DIRECTION ( 'NONE',  ( -1.000000000000000000, -0.000000000000000000, -0.000000000000000000 ) ) ;
#42 = ORIENTED_EDGE ( 'NONE', *, *, #150, .F. ) ;
#43 = CARTESIAN_POINT ( 'NONE',  ( -2.999999999999999556, 0.000000000000000000, 0.000000000000000000 ) ) ;
#44 = EDGE_LOOP ( 'NONE', ( #325, #160 ) ) ;
#45 = CIRCLE ( 'NONE', #162, 6.349999999999999645 ) ;
#46 = EDGE_CURVE ( 'NONE', #248, #209, #312, .T. ) ;
#47 = DIRECTION ( 'NONE',  ( -1.000000000000000000, -0.000000000000000000, -0.000000000000000000 ) ) ;
#48 = AXIS2_PLACEMENT_3D ( 'NONE', #8, #268, #266 ) ;
#49 = PERSON_AND_ORGANIZATION ( #214, #307 ) ;
#50 = DATE_TIME_ROLE ( 'creation_date' ) ;
#51 = CIRCLE ( 'NONE', #130, 12.69999999999999929 ) ;
#52 = PERSON_AND_ORGANIZATION_ROLE ( 'creator' ) ;
#53 = EDGE_CURVE ( 'NONE', #327, #96, #280, .T. ) ;
#54 = EDGE_CURVE ( 'NONE', #209, #136, #165, .T. ) ;
#55 = DIRECTION ( 'NONE',  ( 1.000000000000000000, 0.000000000000000000, 0.000000000000000000 ) ) ;
#56 = PERSON_AND_ORGANIZATION ( #214, #307 ) ;
#57 = PLANE ( 'NONE',  #320 ) ;
#58 = DIRECTION ( 'NONE',  ( -1.000000000000000000, -0.000000000000000000, -0.000000000000000000 ) ) ;
#59 = VERTEX_POINT ( 'NONE', #221 ) ;
#60 =( NAMED_UNIT ( * ) SI_UNIT ( $, .STERADIAN. ) SOLID_ANGLE_UNIT ( ) );
#61 = VECTOR ( 'NONE', #18, 1000.000000000000000 ) ;
#62 = EDGE_LOOP ( 'NONE', ( #42, #293, #141, #94 ) ) ;
#63 = CARTESIAN_POINT ( 'NONE',  ( -3.000000000000000000, 0.000000000000000000, 12.69999999999999929 ) ) ;
#64 = DIRECTION ( 'NONE',  ( 0.000000000000000000, 0.000000000000000000, 1.000000000000000000 ) ) ;
#65 = ORIENTED_EDGE ( 'NONE', *, *, #114, .T. ) ;
#66 = AXIS2_PLACEMENT_3D ( 'NONE', #147, #227, #279 ) ;
#67 = CARTESIAN_POINT ( 'NONE',  ( -2.999999999999999556, 7.776507174585692163E-16, -6.349999999999999645 ) ) ;
#68 = ORIENTED_EDGE ( 'NONE', *, *, #252, .T. ) ;
#69 = CARTESIAN_POINT ( 'NONE',  ( -3.000000000000000000, 1.555301434917138433E-15, -12.69999999999999929 ) ) ;
#70 = CARTESIAN_POINT ( 'NONE',  ( 3.000000000000000888, 0.000000000000000000, 6.349999999999999645 ) ) ;
#71 = AXIS2_PLACEMENT_3D ( 'NONE', #17, #93, #220 ) ;
#72 = CC_DESIGN_DATE_AND_TIME_ASSIGNMENT ( #7, #30, ( #285 ) ) ;
#73 = PERSON_AND_ORGANIZATION ( #214, #307 ) ;
#74 = ADVANCED_FACE ( 'NONE', ( #92 ), #171, .F. ) ;
#75 = EDGE_CURVE ( 'NONE', #90, #136, #45, .T. ) ;
#76 = CC_DESIGN_APPROVAL ( #256, ( #179 ) ) ;
#77 = AXIS2_PLACEMENT_3D ( 'NONE', #178, #3, #176 ) ;
#78 = PERSON_AND_ORGANIZATION_ROLE ( 'design_supplier' ) ;
#79 = CARTESIAN_POINT ( 'NONE',  ( -1.500000000000000444, 0.000000000000000000, 0.000000000000000000 ) ) ;
#80 = CALENDAR_DATE ( 2020, 24, 12 ) ;
#81 = DIRECTION ( 'NONE',  ( -1.000000000000000000, -0.000000000000000000, -0.000000000000000000 ) ) ;
#82 = EDGE_LOOP ( 'NONE', ( #301, #88, #68, #65 ) ) ;
#83 = ORIENTED_EDGE ( 'NONE', *, *, #294, .T. ) ;
#84 = CIRCLE ( 'NONE', #181, 6.349999999999999645 ) ;
#85 = CC_DESIGN_PERSON_AND_ORGANIZATION_ASSIGNMENT ( #49, #286, ( #285 ) ) ;
#86 = DIRECTION ( 'NONE',  ( -1.000000000000000000, -0.000000000000000000, -0.000000000000000000 ) ) ;
#87 = CARTESIAN_POINT ( 'NONE',  ( 3.000000000000000888, 0.000000000000000000, 0.000000000000000000 ) ) ;
#88 = ORIENTED_EDGE ( 'NONE', *, *, #306, .F. ) ;
#89 = CARTESIAN_POINT ( 'NONE',  ( 1.500000000000000888, 0.000000000000000000, 0.000000000000000000 ) ) ;
#90 = VERTEX_POINT ( 'NONE', #67 ) ;
#91 = APPROVAL_PERSON_ORGANIZATION ( #175, #40, #202 ) ;
#92 = FACE_OUTER_BOUND ( 'NONE', #82, .T. ) ;
#93 = DIRECTION ( 'NONE',  ( -1.000000000000000000, -0.000000000000000000, -0.000000000000000000 ) ) ;
#94 = ORIENTED_EDGE ( 'NONE', *, *, #134, .T. ) ;
#95 = ADVANCED_FACE ( 'NONE', ( #112 ), #15, .F. ) ;
#96 = VERTEX_POINT ( 'NONE', #69 ) ;
#97 = DIRECTION ( 'NONE',  ( 0.000000000000000000, 0.000000000000000000, 1.000000000000000000 ) ) ;
#98 = DATE_AND_TIME ( #151, #138 ) ;
#99 = AXIS2_PLACEMENT_3D ( 'NONE', #295, #41, #247 ) ;
#100 = APPLICATION_PROTOCOL_DEFINITION ( 'international standard', 'config_control_design', 1994, #163 ) ;
#101 = EDGE_CURVE ( 'NONE', #39, #226, #249, .T. ) ;
#102 = APPLICATION_PROTOCOL_DEFINITION ( 'international standard', 'config_control_design', 1994, #126 ) ;
#103 = DATE_AND_TIME ( #5, #194 ) ;
#104 = APPROVAL ( #236, 'UNSPECIFIED' ) ;
#105 = PLANE ( 'NONE',  #48 ) ;
#106 = CIRCLE ( 'NONE', #28, 12.69999999999999929 ) ;
#107 = LINE ( 'NONE', #110, #244 ) ;
#108 = ORIENTED_EDGE ( 'NONE', *, *, #200, .T. ) ;
#109 = LINE ( 'NONE', #287, #170 ) ;
#110 = CARTESIAN_POINT ( 'NONE',  ( -1.614212418857619014, 1.555301434917138433E-15, -12.69999999999999929 ) ) ;
#111 = VECTOR ( 'NONE', #324, 1000.000000000000000 ) ;
#112 = FACE_OUTER_BOUND ( 'NONE', #142, .T. ) ;
#113 = EDGE_CURVE ( 'NONE', #226, #59, #282, .T. ) ;
#114 = EDGE_CURVE ( 'NONE', #59, #226, #233, .T. ) ;
#115 = FACE_OUTER_BOUND ( 'NONE', #157, .T. ) ;
#116 = FACE_BOUND ( 'NONE', #129, .T. ) ;
#117 = VERTEX_POINT ( 'NONE', #192 ) ;
#118 = DIRECTION ( 'NONE',  ( -1.000000000000000000, -0.000000000000000000, -0.000000000000000000 ) ) ;
#119 = EDGE_LOOP ( 'NONE', ( #319, #274 ) ) ;
#120 = AXIS2_PLACEMENT_3D ( 'NONE', #277, #19, #164 ) ;
#121 = APPROVAL_DATE_TIME ( #103, #256 ) ;
#122 = PERSON_AND_ORGANIZATION_ROLE ( 'design_owner' ) ;
#123 = ADVANCED_FACE ( 'NONE', ( #115 ), #224, .T. ) ;
#124 = AXIS2_PLACEMENT_3D ( 'NONE', #89, #140, #38 ) ;
#125 = PRODUCT_DEFINITION_SHAPE ( 'NONE', 'NONE',  #191 ) ;
#126 = APPLICATION_CONTEXT ( 'configuration controlled 3d designs of mechanical parts and assemblies' ) ;
#127 = PERSON_AND_ORGANIZATION ( #214, #307 ) ;
#128 = CARTESIAN_POINT ( 'NONE',  ( 1.500000000000000444, 6.349999999999999645, 0.000000000000000000 ) ) ;
#129 = EDGE_LOOP ( 'NONE', ( #243, #331 ) ) ;
#130 = AXIS2_PLACEMENT_3D ( 'NONE', #241, #154, #183 ) ;
#131 = ADVANCED_FACE ( 'NONE', ( #197 ), #218, .F. ) ;
#132 =( LENGTH_UNIT ( ) NAMED_UNIT ( * ) SI_UNIT ( .MILLI., .METRE. ) );
#133 = FACE_OUTER_BOUND ( 'NONE', #119, .T. ) ;
#134 = EDGE_CURVE ( 'NONE', #136, #90, #37, .T. ) ;
#135 = CARTESIAN_POINT ( 'NONE',  ( 3.000000000000000888, 0.000000000000000000, 0.000000000000000000 ) ) ;
#136 = VERTEX_POINT ( 'NONE', #297 ) ;
#137 = ADVANCED_FACE ( 'NONE', ( #116, #326 ), #275, .F. ) ;
#138 = LOCAL_TIME ( 9, 35, 2.000000000000000000, #308 ) ;
#139 = AXIS2_PLACEMENT_3D ( 'NONE', #32, #159, #292 ) ;
#140 = DIRECTION ( 'NONE',  ( -1.000000000000000000, -0.000000000000000000, -0.000000000000000000 ) ) ;
#141 = ORIENTED_EDGE ( 'NONE', *, *, #54, .T. ) ;
#142 = EDGE_LOOP ( 'NONE', ( #83, #329, #193, #278 ) ) ;
#143 = CARTESIAN_POINT ( 'NONE',  ( -1.614212418857619014, 0.000000000000000000, 0.000000000000000000 ) ) ;
#144 = CARTESIAN_POINT ( 'NONE',  ( -1.614212418857619014, 0.000000000000000000, 6.349999999999999645 ) ) ;
#145 = CIRCLE ( 'NONE', #26, 12.69999999999999929 ) ;
#146 = CARTESIAN_POINT ( 'NONE',  ( -1.614212418857619014, 0.000000000000000000, 0.000000000000000000 ) ) ;
#147 = CARTESIAN_POINT ( 'NONE',  ( -1.500000000000000444, 0.000000000000000000, 0.000000000000000000 ) ) ;
#148 = CALENDAR_DATE ( 2020, 24, 12 ) ;
#149 = PERSON_AND_ORGANIZATION ( #214, #307 ) ;
#150 = EDGE_CURVE ( 'NONE', #248, #90, #13, .T. ) ;
#151 = CALENDAR_DATE ( 2020, 24, 12 ) ;
#152 = CC_DESIGN_PERSON_AND_ORGANIZATION_ASSIGNMENT ( #149, #122, ( #177 ) ) ;
#153 = COORDINATED_UNIVERSAL_TIME_OFFSET ( 8, 0, .AHEAD. ) ;
#154 = DIRECTION ( 'NONE',  ( -1.000000000000000000, -0.000000000000000000, -0.000000000000000000 ) ) ;
#155 = DIRECTION ( 'NONE',  ( 0.000000000000000000, 0.000000000000000000, 1.000000000000000000 ) ) ;
#156 = EDGE_LOOP ( 'NONE', ( #108, #255, #219, #167 ) ) ;
#157 = EDGE_LOOP ( 'NONE', ( #298, #281, #270, #187 ) ) ;
#158 = EDGE_CURVE ( 'NONE', #39, #34, #84, .T. ) ;
#159 = DIRECTION ( 'NONE',  ( -1.000000000000000000, -0.000000000000000000, -0.000000000000000000 ) ) ;
#160 = ORIENTED_EDGE ( 'NONE', *, *, #46, .F. ) ;
#161 = DIRECTION ( 'NONE',  ( 0.000000000000000000, 0.000000000000000000, 1.000000000000000000 ) ) ;
#162 = AXIS2_PLACEMENT_3D ( 'NONE', #43, #22, #245 ) ;
#163 = APPLICATION_CONTEXT ( 'configuration controlled 3d designs of mechanical parts and assemblies' ) ;
#164 = DIRECTION ( 'NONE',  ( 0.000000000000000000, 0.000000000000000000, 1.000000000000000000 ) ) ;
#165 = LINE ( 'NONE', #144, #61 ) ;
#166 = DIRECTION ( 'NONE',  ( -1.000000000000000000, -0.000000000000000000, -0.000000000000000000 ) ) ;
#167 = ORIENTED_EDGE ( 'NONE', *, *, #172, .F. ) ;
#168 = CARTESIAN_POINT ( 'NONE',  ( -2.999999999999999556, 0.000000000000000000, 0.000000000000000000 ) ) ;
#169 = ORIENTED_EDGE ( 'NONE', *, *, #158, .F. ) ;
#170 = VECTOR ( 'NONE', #10, 1000.000000000000000 ) ;
#171 = CYLINDRICAL_SURFACE ( 'NONE', #299, 6.349999999999999645 ) ;
#172 = EDGE_CURVE ( 'NONE', #20, #327, #109, .T. ) ;
#173 = SHAPE_DEFINITION_REPRESENTATION ( #125, #254 ) ;
#174 = CC_DESIGN_APPROVAL ( #40, ( #191 ) ) ;
#175 = PERSON_AND_ORGANIZATION ( #214, #307 ) ;
#176 = DIRECTION ( 'NONE',  ( 1.000000000000000000, 0.000000000000000000, 0.000000000000000000 ) ) ;
#177 = PRODUCT ( 'QB-CTZHWP-12.7-780-M', 'QB-CTZHWP-12.7-780-M', '', ( #184 ) ) ;
#178 = CARTESIAN_POINT ( 'NONE',  ( 0.000000000000000000, 0.000000000000000000, 0.000000000000000000 ) ) ;
#179 = PRODUCT_DEFINITION_FORMATION_WITH_SPECIFIED_SOURCE ( 'ANY', '', #177, .NOT_KNOWN. ) ;
#180 =( NAMED_UNIT ( * ) PLANE_ANGLE_UNIT ( ) SI_UNIT ( $, .RADIAN. ) );
#181 = AXIS2_PLACEMENT_3D ( 'NONE', #87, #189, #161 ) ;
#182 = SECURITY_CLASSIFICATION_LEVEL ( 'unclassified' ) ;
#183 = DIRECTION ( 'NONE',  ( 0.000000000000000000, 0.000000000000000000, 1.000000000000000000 ) ) ;
#184 = MECHANICAL_CONTEXT ( 'NONE', #126, 'mechanical' ) ;
#185 = DIRECTION ( 'NONE',  ( -1.000000000000000000, -0.000000000000000000, -0.000000000000000000 ) ) ;
#186 = EDGE_LOOP ( 'NONE', ( #322, #333 ) ) ;
#187 = ORIENTED_EDGE ( 'NONE', *, *, #311, .F. ) ;
#188 = DIRECTION ( 'NONE',  ( -0.000000000000000000, 0.000000000000000000, 1.000000000000000000 ) ) ;
#189 = DIRECTION ( 'NONE',  ( -1.000000000000000000, -0.000000000000000000, -0.000000000000000000 ) ) ;
#190 = CC_DESIGN_PERSON_AND_ORGANIZATION_ASSIGNMENT ( #56, #204, ( #179 ) ) ;
#191 = PRODUCT_DEFINITION ( 'UNKNOWN', '', #179, #314 ) ;
#192 = CARTESIAN_POINT ( 'NONE',  ( 3.000000000000000000, 1.555301434917138433E-15, -12.69999999999999929 ) ) ;
#193 = ORIENTED_EDGE ( 'NONE', *, *, #75, .T. ) ;
#194 = LOCAL_TIME ( 9, 35, 2.000000000000000000, #263 ) ;
#195 = DIRECTION ( 'NONE',  ( 1.000000000000000000, 0.000000000000000000, 0.000000000000000000 ) ) ;
#196 = CARTESIAN_POINT ( 'NONE',  ( 3.000000000000000000, 0.000000000000000000, 0.000000000000000000 ) ) ;
#197 = FACE_OUTER_BOUND ( 'NONE', #62, .T. ) ;
#198 = CARTESIAN_POINT ( 'NONE',  ( 3.000000000000000000, 0.000000000000000000, 12.69999999999999929 ) ) ;
#199 = CARTESIAN_POINT ( 'NONE',  ( 3.000000000000000888, 7.776507174585692163E-16, -6.349999999999999645 ) ) ;
#200 = EDGE_CURVE ( 'NONE', #20, #117, #145, .T. ) ;
#201 = AXIS2_PLACEMENT_3D ( 'NONE', #135, #81, #4 ) ;
#202 = APPROVAL_ROLE ( '' ) ;
#203 = PLANE ( 'NONE',  #238 ) ;
#204 = PERSON_AND_ORGANIZATION_ROLE ( 'creator' ) ;
#205 = CARTESIAN_POINT ( 'NONE',  ( 3.000000000000000000, 12.69999999999999929, 0.000000000000000000 ) ) ;
#206 = VECTOR ( 'NONE', #185, 1000.000000000000000 ) ;
#207 = APPROVAL_ROLE ( '' ) ;
#208 = FACE_OUTER_BOUND ( 'NONE', #156, .T. ) ;
#209 = VERTEX_POINT ( 'NONE', #288 ) ;
#210 = UNCERTAINTY_MEASURE_WITH_UNIT (LENGTH_MEASURE( 1.000000000000000082E-05 ), #132, 'distance_accuracy_value', 'NONE');
#211 = MANIFOLD_SOLID_BREP ( 'Ðý×', #258 ) ;
#212 = ADVANCED_FACE ( 'NONE', ( #213 ), #57, .F. ) ;
#213 = FACE_OUTER_BOUND ( 'NONE', #332, .T. ) ;
#214 = PERSON ( 'UNSPECIFIED', 'UNSPECIFIED', 'UNSPECIFIED', ('UNSPECIFIED'), ('UNSPECIFIED'), ('UNSPECIFIED') ) ;
#215 = CYLINDRICAL_SURFACE ( 'NONE', #139, 12.69999999999999929 ) ;
#216 = CIRCLE ( 'NONE', #305, 6.349999999999999645 ) ;
#217 = CARTESIAN_POINT ( 'NONE',  ( -1.614212418857619014, 7.776507174585692163E-16, -6.349999999999999645 ) ) ;
#218 = CYLINDRICAL_SURFACE ( 'NONE', #71, 6.349999999999999645 ) ;
#219 = ORIENTED_EDGE ( 'NONE', *, *, #53, .F. ) ;
#220 = DIRECTION ( 'NONE',  ( 0.000000000000000000, 0.000000000000000000, 1.000000000000000000 ) ) ;
#221 = CARTESIAN_POINT ( 'NONE',  ( 1.500000000000000888, 0.000000000000000000, 6.349999999999999645 ) ) ;
#222 = CC_DESIGN_APPROVAL ( #104, ( #285 ) ) ;
#223 = AXIS2_PLACEMENT_3D ( 'NONE', #168, #302, #242 ) ;
#224 = CYLINDRICAL_SURFACE ( 'NONE', #99, 12.69999999999999929 ) ;
#225 = DIRECTION ( 'NONE',  ( -1.000000000000000000, -0.000000000000000000, -0.000000000000000000 ) ) ;
#226 = VERTEX_POINT ( 'NONE', #237 ) ;
#227 = DIRECTION ( 'NONE',  ( 1.000000000000000000, 0.000000000000000000, 0.000000000000000000 ) ) ;
#228 = APPROVAL_PERSON_ORGANIZATION ( #127, #104, #207 ) ;
#229 = CIRCLE ( 'NONE', #201, 6.349999999999999645 ) ;
#230 = DATE_AND_TIME ( #80, #290 ) ;
#231 = CC_DESIGN_DATE_AND_TIME_ASSIGNMENT ( #98, #50, ( #191 ) ) ;
#232 = DATE_AND_TIME ( #260, #25 ) ;
#233 = CIRCLE ( 'NONE', #124, 6.349999999999999645 ) ;
#234 = ADVANCED_FACE ( 'NONE', ( #6 ), #33, .F. ) ;
#235 = CARTESIAN_POINT ( 'NONE',  ( -1.614212418857619014, 0.000000000000000000, 6.349999999999999645 ) ) ;
#236 = APPROVAL_STATUS ( 'not_yet_approved' ) ;
#237 = CARTESIAN_POINT ( 'NONE',  ( 1.500000000000000888, 7.776507174585692163E-16, -6.349999999999999645 ) ) ;
#238 = AXIS2_PLACEMENT_3D ( 'NONE', #205, #313, #188 ) ;
#239 = ORIENTED_EDGE ( 'NONE', *, *, #311, .T. ) ;
#240 = CARTESIAN_POINT ( 'NONE',  ( 3.000000000000000000, 0.000000000000000000, 0.000000000000000000 ) ) ;
#241 = CARTESIAN_POINT ( 'NONE',  ( -3.000000000000000000, 0.000000000000000000, 0.000000000000000000 ) ) ;
#242 = DIRECTION ( 'NONE',  ( 0.000000000000000000, 0.000000000000000000, 1.000000000000000000 ) ) ;
#243 = ORIENTED_EDGE ( 'NONE', *, *, #134, .F. ) ;
#244 = VECTOR ( 'NONE', #86, 1000.000000000000000 ) ;
#245 = DIRECTION ( 'NONE',  ( 0.000000000000000000, 0.000000000000000000, 1.000000000000000000 ) ) ;
#246 = ORIENTED_EDGE ( 'NONE', *, *, #101, .T. ) ;
#247 = DIRECTION ( 'NONE',  ( 0.000000000000000000, 0.000000000000000000, 1.000000000000000000 ) ) ;
#248 = VERTEX_POINT ( 'NONE', #269 ) ;
#249 = LINE ( 'NONE', #330, #251 ) ;
#250 = ORIENTED_EDGE ( 'NONE', *, *, #53, .T. ) ;
#251 = VECTOR ( 'NONE', #166, 1000.000000000000000 ) ;
#252 = EDGE_CURVE ( 'NONE', #34, #59, #291, .T. ) ;
#253 = DIRECTION ( 'NONE',  ( 0.000000000000000000, 0.000000000000000000, 1.000000000000000000 ) ) ;
#254 = ADVANCED_BREP_SHAPE_REPRESENTATION ( 'QB-CTZHWP-12.7-780-M', ( #211, #77 ), #267 ) ;
#255 = ORIENTED_EDGE ( 'NONE', *, *, #323, .T. ) ;
#256 = APPROVAL ( #284, 'UNSPECIFIED' ) ;
#257 = CC_DESIGN_PERSON_AND_ORGANIZATION_ASSIGNMENT ( #265, #52, ( #191 ) ) ;
#258 = CLOSED_SHELL ( 'NONE', ( #335, #95, #234, #212, #74, #131, #137, #123, #289, #262 ) ) ;
#259 = CC_DESIGN_PERSON_AND_ORGANIZATION_ASSIGNMENT ( #310, #78, ( #179 ) ) ;
#260 = CALENDAR_DATE ( 2020, 24, 12 ) ;
#261 = AXIS2_PLACEMENT_3D ( 'NONE', #328, #195, #300 ) ;
#262 = ADVANCED_FACE ( 'NONE', ( #35 ), #105, .F. ) ;
#263 = COORDINATED_UNIVERSAL_TIME_OFFSET ( 8, 0, .AHEAD. ) ;
#264 = CARTESIAN_POINT ( 'NONE',  ( -1.614212418857619014, 0.000000000000000000, 0.000000000000000000 ) ) ;
#265 = PERSON_AND_ORGANIZATION ( #214, #307 ) ;
#266 = DIRECTION ( 'NONE',  ( 0.000000000000000000, 0.000000000000000000, -1.000000000000000000 ) ) ;
#267 =( GEOMETRIC_REPRESENTATION_CONTEXT ( 3 ) GLOBAL_UNCERTAINTY_ASSIGNED_CONTEXT ( ( #210 ) ) GLOBAL_UNIT_ASSIGNED_CONTEXT ( ( #132, #180, #60 ) ) REPRESENTATION_CONTEXT ( 'NONE', 'WORKASPACE' ) );
#268 = DIRECTION ( 'NONE',  ( 1.000000000000000000, 0.000000000000000000, 0.000000000000000000 ) ) ;
#269 = CARTESIAN_POINT ( 'NONE',  ( -1.500000000000000444, 7.776507174585692163E-16, -6.349999999999999645 ) ) ;
#270 = ORIENTED_EDGE ( 'NONE', *, *, #172, .T. ) ;
#271 = PRODUCT_RELATED_PRODUCT_CATEGORY ( 'detail', '', ( #177 ) ) ;
#272 = DIRECTION ( 'NONE',  ( -1.000000000000000000, -0.000000000000000000, -0.000000000000000000 ) ) ;
#273 = CC_DESIGN_SECURITY_CLASSIFICATION ( #285, ( #179 ) ) ;
#274 = ORIENTED_EDGE ( 'NONE', *, *, #24, .F. ) ;
#275 = PLANE ( 'NONE',  #261 ) ;
#276 = DIRECTION ( 'NONE',  ( 0.000000000000000000, 0.000000000000000000, 1.000000000000000000 ) ) ;
#277 = CARTESIAN_POINT ( 'NONE',  ( 1.500000000000000888, 0.000000000000000000, 0.000000000000000000 ) ) ;
#278 = ORIENTED_EDGE ( 'NONE', *, *, #54, .F. ) ;
#279 = DIRECTION ( 'NONE',  ( 0.000000000000000000, 0.000000000000000000, -1.000000000000000000 ) ) ;
#280 = CIRCLE ( 'NONE', #12, 12.69999999999999929 ) ;
#281 = ORIENTED_EDGE ( 'NONE', *, *, #24, .T. ) ;
#282 = CIRCLE ( 'NONE', #120, 6.349999999999999645 ) ;
#283 = APPROVAL_STATUS ( 'not_yet_approved' ) ;
#284 = APPROVAL_STATUS ( 'not_yet_approved' ) ;
#285 = SECURITY_CLASSIFICATION ( '', '', #182 ) ;
#286 = PERSON_AND_ORGANIZATION_ROLE ( 'classification_officer' ) ;
#287 = CARTESIAN_POINT ( 'NONE',  ( -1.614212418857619014, 0.000000000000000000, 12.69999999999999929 ) ) ;
#288 = CARTESIAN_POINT ( 'NONE',  ( -1.500000000000000444, 0.000000000000000000, 6.349999999999999645 ) ) ;
#289 = ADVANCED_FACE ( 'NONE', ( #133, #318 ), #203, .F. ) ;
#290 = LOCAL_TIME ( 9, 35, 2.000000000000000000, #315 ) ;
#291 = LINE ( 'NONE', #235, #206 ) ;
#292 = DIRECTION ( 'NONE',  ( 0.000000000000000000, 0.000000000000000000, 1.000000000000000000 ) ) ;
#293 = ORIENTED_EDGE ( 'NONE', *, *, #46, .T. ) ;
#294 = EDGE_CURVE ( 'NONE', #209, #248, #216, .T. ) ;
#295 = CARTESIAN_POINT ( 'NONE',  ( -1.614212418857619014, 0.000000000000000000, 0.000000000000000000 ) ) ;
#296 = ORIENTED_EDGE ( 'NONE', *, *, #252, .F. ) ;
#297 = CARTESIAN_POINT ( 'NONE',  ( -2.999999999999999556, 0.000000000000000000, 6.349999999999999645 ) ) ;
#298 = ORIENTED_EDGE ( 'NONE', *, *, #323, .F. ) ;
#299 = AXIS2_PLACEMENT_3D ( 'NONE', #146, #303, #253 ) ;
#300 = DIRECTION ( 'NONE',  ( 0.000000000000000000, 0.000000000000000000, -1.000000000000000000 ) ) ;
#301 = ORIENTED_EDGE ( 'NONE', *, *, #101, .F. ) ;
#302 = DIRECTION ( 'NONE',  ( -1.000000000000000000, -0.000000000000000000, -0.000000000000000000 ) ) ;
#303 = DIRECTION ( 'NONE',  ( -1.000000000000000000, -0.000000000000000000, -0.000000000000000000 ) ) ;
#304 = ORIENTED_EDGE ( 'NONE', *, *, #113, .T. ) ;
#305 = AXIS2_PLACEMENT_3D ( 'NONE', #79, #55, #31 ) ;
#306 = EDGE_CURVE ( 'NONE', #34, #39, #229, .T. ) ;
#307 = ORGANIZATION ( 'UNSPECIFIED', 'UNSPECIFIED', '' ) ;
#308 = COORDINATED_UNIVERSAL_TIME_OFFSET ( 8, 0, .AHEAD. ) ;
#309 = APPROVAL_DATE_TIME ( #232, #40 ) ;
#310 = PERSON_AND_ORGANIZATION ( #214, #307 ) ;
#311 = EDGE_CURVE ( 'NONE', #96, #327, #51, .T. ) ;
#312 = CIRCLE ( 'NONE', #66, 6.349999999999999645 ) ;
#313 = DIRECTION ( 'NONE',  ( -1.000000000000000000, 0.000000000000000000, -0.000000000000000000 ) ) ;
#314 = DESIGN_CONTEXT ( 'detailed design', #163, 'design' ) ;
#315 = COORDINATED_UNIVERSAL_TIME_OFFSET ( 8, 0, .AHEAD. ) ;
#316 = DIRECTION ( 'NONE',  ( -0.000000000000000000, 0.000000000000000000, 1.000000000000000000 ) ) ;
#317 = ORIENTED_EDGE ( 'NONE', *, *, #113, .F. ) ;
#318 = FACE_BOUND ( 'NONE', #186, .T. ) ;
#319 = ORIENTED_EDGE ( 'NONE', *, *, #200, .F. ) ;
#320 = AXIS2_PLACEMENT_3D ( 'NONE', #128, #11, #316 ) ;
#321 = DIRECTION ( 'NONE',  ( 0.000000000000000000, 0.000000000000000000, 1.000000000000000000 ) ) ;
#322 = ORIENTED_EDGE ( 'NONE', *, *, #306, .T. ) ;
#323 = EDGE_CURVE ( 'NONE', #117, #96, #107, .T. ) ;
#324 = DIRECTION ( 'NONE',  ( -1.000000000000000000, -0.000000000000000000, -0.000000000000000000 ) ) ;
#325 = ORIENTED_EDGE ( 'NONE', *, *, #294, .F. ) ;
#326 = FACE_OUTER_BOUND ( 'NONE', #14, .T. ) ;
#327 = VERTEX_POINT ( 'NONE', #63 ) ;
#328 = CARTESIAN_POINT ( 'NONE',  ( -3.000000000000000000, 6.349999999999999645, 0.000000000000000000 ) ) ;
#329 = ORIENTED_EDGE ( 'NONE', *, *, #150, .T. ) ;
#330 = CARTESIAN_POINT ( 'NONE',  ( -1.614212418857619014, 7.776507174585692163E-16, -6.349999999999999645 ) ) ;
#331 = ORIENTED_EDGE ( 'NONE', *, *, #75, .F. ) ;
#332 = EDGE_LOOP ( 'NONE', ( #9, #317 ) ) ;
#333 = ORIENTED_EDGE ( 'NONE', *, *, #158, .T. ) ;
#334 = LOCAL_TIME ( 9, 35, 2.000000000000000000, #153 ) ;
#335 = ADVANCED_FACE ( 'NONE', ( #208 ), #215, .T. ) ;
ENDSEC;
END-ISO-10303-21;
